The Mystical Pototato Head Groove Thing Tab by Satriani Joe

Intro
Q=176
4/4
Gtr I
PM----| PM----|
||-----------------------|---------|----------------------|------||
||o----------------------|---------|----------------------|-----o||
||-----------------------|---------|----------------------|------||
||----------11-(11)-12---|---------|---------12-(12)-11---|------||
||o----------7--(7)--7---|---------|----------7--(7)--7---|-----o||
||--0-0-0-0--------------|---------|-0-0-0-0--------------|------||

PM----|
|----------------------|--------------------|
|----------------------|--------------------|
|----------------------|--------------------|
|---------11-(11)-12---|--------------------|
|----------7--(7)--7---|--------------------|
|-0-0-0-0--------------|--0-3-0-5b6r(5)-3p0-|

PM----| ~
|----------------------|-----------------|
|----------------------|-----------------|
|----------------------|-----------------|
|---------12-(12)-11---|-----------------|
|----------7--(7)--7---|------------5----|
|-0-0-0-0--------------|--0-3-0-6h7------|

PM----|
|----------------------|--------------------|
|----------------------|--------------------|
|----------------------|--------------------|
|---------11-(11)-12---|--------------------|
|----------7--(7)--7---|--------------------|
|-0-0-0-0--------------|--0-3-0-5b6r(5)-3p0-|

PM----|
|----------------------|----------0-------|
|----------------------|------------------|
|----------------------|------2-3---3s2---|
|---------12-(12)-11---|------------------|
|----------7--(7)--7---|--2-3-------------|
|-0-0-0-0--------------|------------------|

PM----|
|----------------------|--------------------|
|----------------------|--------------------|
|----------------------|--------------------|
|---------11-(11)-12---|--------------------|
|----------7--(7)--7---|--------------------|
|-0-0-0-0--------------|--0-3-0-5b6r(5)-3p0-|

PM----| ~~~
|----------------------|---------------------|
|----------------------|---------------------|
|----------------------|---------------------|
|---------12-(12)-11---|---------------------|
|----------7--(7)--7---|---------------------|
|-0-0-0-0--------------|--0-3-0-6b7-7-6b7----|

Gtr II
|----------------------|--------------------|
|----------------------|--------------------|
|----------------------|--------------------|
|----------------------|--------------------|
|----------------------|--------------------|
|----------------------|--------------------|
|
| Gtr I
| PM----|
|----------------------|--------------------|
|----------------------|--------------------|
|----------------------|--------------------|
|---------11-(11)-12---|--------------------|
|----------7--(7)--7---|--------------------|
|-0-0-0-0--------------|--0-3-0-5b6r(5)-3p0-|

\7___/
|-----------------------------|------------------||
|-----------------------------|------------------||
|---------------------0---(0)-|-4----------------||
|-----------------------------|------------------||
|-----------------------------|------------------||
|-----------------------------|------------------||
|
| PM----|
|-----------------------------|-----------0------||
|-----------------------------|------------------||
|-----------------------------|-------2-3---3----||
|---------12-(12)-11----------|------------------||
|----------7--(7)--7----------|---2-3---------3--||
|-0-0-0-0---------------------|------------------||

~~~~~~~~~~~~~~~~~~~~~~~~~~
|-------------------|-------------------|
|-------------------|-------------------|
|-4-----------(4)---|-(4)---------------|
|-------------------|-------------------|
|-------------------|-------------------|
|-------------------|-------------------|
|
| PM------------------------|
|-------------------|-----------0-------|
|-------------------|--4--4-------0h1---|
|-----4-----4-------|-----------------2-|
|---4-----4-------4-|-------------------|
|-2-----3------2----|-------2-0---------|
|-------------------|-------------------|

~~~~~~~~~~~~~~~~~~~~~~~~~
|-------------------|--------------------|
|-------------------|---------/5-4-------|
|-(4)---------------|-(4)----------5-4---|
|-------------------|------------------5-|
|-------------------|--------------------|
|-------------------|--------------------|
|
| PM-----------------------|
|-------------------|------------0-------|
|-------------------|--4--4--------0h1---|
|-------4-----4-----|------------------2-|
|-----4-----4-----4-|--------------------|
|--2------3-----2---|-------2--0---------|
|-------------------|--------------------|

~~~
|-------------------------------|-------------------|
|-------------------------------|-------------------|
|-------------------------------|-------------------|
|-4---(4)b5r(4)-(4)-(4)b5r(4)---|-(4)---------------|
|-------------------------------|-------------------|
|-------------------------------|-------------------|
|
| PM------------------------------------|
|-------------------------------|-----------0-------|
|-------------------------------|--4--4-------0h1---|
|------4-------------4----------|-----------------2-|
|---4------------4------------4-|-------------------|
|-2----------3-------------2----|-------2-0---------|
|-------------------------------|-------------------|

\7
|------------------|----------------------||
|------------------|----------------------||
|------------------|----------------------||
|------------------|----------------------||
|-\2----3-(3)-3-2--|-(2)----(2)-(2)-------||
|------------------|----------------------||
|
|------------------|----------------------||
|------------------|----------------------||
|--4--4-5-(5)-5-4--|-(4)-------------(4)/-||
|--4--4-5-(5)-5-4--|-(4)-------------(4)/-||
|--2--2-3-(3)-3-2--|-(2)-------------(2)/-||
|------------------|----------------------||

|-------------------|------------------------------|
|-------------------|------------------------------|
|-------------------|------------------------------|
|-------------------|------------------------------|
|-------------------|------------------------------|
|-------------------|------------------------------|
|
| PM--| PM----| PM----------|
|-------------------|------------------------------|
|-------------------|------------------------------|
|---------9---------|------------------------------|
|-9-------9---------|-10s12---11-(11)---9-9s11--9--|
|-7-----------------|--9s10-9---------7---7s=9--7--|
|---0-0-0---0-0-0-0-|------------------------------|

|-------------------|-----------------------|
|-------------------|--------------------|
|-------------------|------------------------------|
|-------------------|------------------------------|
|-------------------|------------------------------|
|-------------------|------------------------------|
|
| PM--| PM| PM--| PM-| PM
|-------------------|----------------0------0------|
|---------------7---|----------------3------3------|
|---------7-----7---|-----4----------2------2------|
|---------7-----7---|-----4------------------------|
|-5-5-5-5---5-5---5S|=2--------2--2------------2---|
|-------------------|------------------------------|

|-------------------|------------------------------|
|----------------------|------------------------------|
|-------------------------|------------------------------|
|-------------------------|------------------------------|
|-------------------------|------------------------------|
|-------------------------|------------------------------|
|
| PM--| PM----| PM----------|
|-------------------------|------------------------------|
|-------------------------|------------------------------|
|--------------9----------|------------------------------|
|--9-----------9----------|-10s12---11-(11)---9-9s11--9--|
|--7----------------------|--9s10-9---------7---7s=9--7--|
|-----0-0--0------0-0-0-0-|------------------------------|

|-------------------|-----------------|
|-------------------|-----------------|
|-------------------|-----------------|
|-------------------|-----------------|
|-------------------|-----------------|
|-------------------|-----------------|
|
| PM--| PM| PM--| PM| PM
|-------------------|---------0--0----|
|---------------7---|---------3--3----|
|---------7-----7---|---4-----2--2----|
|---------7-----7---|---4-------------|
|-5-5-5-5---5-5---5S|=2---2-2------2--|
|-------------------|-----------------|

|-------------------|------------------------------|
|-------------------|------------------------------|
|-------------------|------------------------------|
|-------------------|------------------------------|
|-------------------|------------------------------|
|-------------------|------------------------------|
|
| PM--| PM----| PM----------|
|-------------------|------------------------------|
|-------------------|------------------------------|
|---------9---------|------------------------------|
|-9-------9---------|-10s12---11-(11)---9-9s11--9--|
|-7-----------------|--9s10-9---------7---7s=9--7--|
|---0-0-0---0-0-0-0-|------------------------------|

|-------------------|-----------------------|
|-------------------|--------------------|
|-------------------|------------------------------|
|-------------------|------------------------------|
|-------------------|------------------------------|
|-------------------|------------------------------|
|
| PM--| PM| PM--| PM-| PM
|-------------------|----------------0------0------|
|---------------7---|----------------3------3------|
|---------7-----7---|-----4----------2------2------|
|---------7-----7---|-----4------------------------|
|-5-5-5-5---5-5---5S|=2--------2--2------------2---|
|-------------------|------------------------------|

|-------------------|------------------------------|
|----------------------|------------------------------|
|-------------------------|------------------------------|
|-------------------------|------------------------------|
|-------------------------|------------------------------|
|-------------------------|------------------------------|
|
| PM--| PM----| PM----------|
|-------------------------|------------------------------|
|-------------------------|------------------------------|
|--------------9----------|------------------------------|
|--9-----------9----------|-10s12---11-(11)---9-9s11--9--|
|--7----------------------|--9s10-9---------7---7s=9--7--|
|-----0-0--0------0-0-0-0-|------------------------------|

|-------------------|-5/-----------0-------||
|-----------------0-|----0-12\-0-----------||
|-------------------|------------4---------||
|-------------------|----------------x\----||
|-------------------|----------------------||
|-------------------|----------------------||
|
| PM--| PM| PM--| PM-| PM
|-------------------|------------0---0-----||
|---------------7---|------------3---3-----||
|---------7-----7---|----4-------2---2-----||
|---------7-----7---|----4-----------------||
|-5-5-5-5---5-5---5S|=2-----2--2--------2--||
|-------------------|----------------------||

~~~~~~~~~~
|-------------------14b15-12-|----12-------14b16========(14)r-----|
|------------------------|------------------------------------|
|----------------------------|------------------------------------|
|---x/-----------------------|------------------------------------|
|----------------------------|------------------------------------|
|----------------------------|------------------------------------|
|
| PM---| PM-----------| PM-------------|
|----------------------------|------------------------------------|
|----------------------------|------------------------------------|
|----------9-----------------|------------------------------------|
|-9--------9-----------------|-10s12---11-(11)------9-9s=11----9--|
|-7--------------------------|--9s10-9------------7---7s==9----7--|
|---0--0-0---0---0---0-----0-|------------------------------------|

|---------------------16-17-|-19-19b21-----16pb17r(16)-------|
|------------17-19b20-------|--------------------------17----|
|---------16----------------|--------------------------------|
|---------------------------|--------------------------------|
|---------------------------|--------------------------------|
|---------------------------|--------------------------------|
|
| PM--| PM| PM--| PM| PM
|---------------------------|---------------0-----------0----|
|----------------------7----|---------------3-----------3----|
|----------7-----------7----|-----4---------2-----------2----|
|----------7-----------7----|-----4--------------------------|
|-5-5-5-5-----5--5--------5S|==2-------2-2----------------2--|
|---------------------------|--------------------------------|

~~ ~~~~~~~
|-------------------------|---------------------------------------------|
|--------17---------------|-------14b15r===(14)---12--------------------|
|-16--------16-(16)-------|-------------------------------13b14r(13)p11-|
|-------------------------|---------------------------------------------|
|-------------------------|---------------------------------------------|
|-------------------------|---------------------------------------------|
|
| PM--| PM-----| PM-------------|
|-------------------------|---------------------------------------------|
|-------------------------|---------------------------------------------|
|------------9------------|---------------------------------------------|
|--9---------9------------|-10s12-------11-(11)----9-9s11---------9-----|
|--7----------------------|--9s10--9------------7----7s=9---------7-----|
|----0-0--0------0--0-0-0-|---------------------------------------------|

~~~~~~~ PM ~~~
|------------------------|---------------------------------------------------|
|------------------------|---------------------------------------------------|
|---------9-(9)s7---6b7==|=(6)r(6)b7==(6)r(6)b7==(6)r(6)b7==(6)r(6)-(6)\-----|
|-----------------7------|---------------------------------------------------|
|------------------------|---------------------------------------------------|
|------------------------|---------------------------------------------------|
|
| PM--| PM-| PM-----| PM-| PM
|------------------------|------------------------0------------------0-------|
|-----------------7------|------------------------3------------------3-------|
|---------7-------7------|------4-----------------2------------------2-------|
|---------7-------7------|------4--------------------------------------------|
|-5-5-5-5----5--5---5S===|==2----------2---2-----------------------------2---|
|------------------------|---------------------------------------------------|

~~~~~~~~~~~~
|----------------14b15-12-|----(12)-------17b19====(17)---(17)r-----|
|-------------12----------|-----------------------------------------|
|-------------------------|-----------------------------------------|
|-------------------------|-----------------------------------------|
|-------------------------|-----------------------------------------|
|-------------------------|-----------------------------------------|
|
| PM--| PM---------| PM-------------|
|-------------------------|-----------------------------------------|
|-------------------------|-----------------------------------------|
|---------9---------------|-----------------------------------------|
|-9-------9---------------|-10s=12----11-(11)--------9--9s=11----9--|
|-7-----------------------|--9s=10--9------------7------7s==9----7--|
|---0-0-0---0--0--0-----0-|-----------------------------------------|

|-------------19b21r(19)b21==(19)r-|---21b22==(21)r(21)-(21)-19-------|
|----------------------------------|------------------------------22--|
|----------------------------------|----------------------------------|
|----------------------------------|----------------------------------|
|----------------------------------|----------------------------------|
|----------------------------------|----------------------------------|
|
| PM--| PM| PM----| PM-| PM
|----------------------------------|----------------------0-----0-----|
|---------------------7------------|----------------------3-----3-----|
|---------7-----------7------------|----4-----------------2-----2-----|
|---------7-----------7------------|----4-----------------------------|
|-5-5-5-5---5--5---------------5S==|=2----------2----2-------------2--|
|----------------------------------|----------------------------------|

~~~~~~~
|-19----------------------|------------------------------|
|-------------------------|------------------------------|
|--------21-21-(21)-------|------------------------------|
|-------------------------|------------------------------|
|-------------------------|------------------------------|
|-------------------------|------------------------------|
|
| PM--| PM-----| PM----------|
|-------------------------|------------------------------|
|-------------------------|------------------------------|
|------------9------------|------------------------------|
|--9---------9------------|-10s12---11-(11)---9-9s11--9--|
|--7----------------------|--9s10-9---------7---7s=9--7--|
|----0-0--0------0--0-0-0-|------------------------------|

|--------------------|------------()-------||
|---0---------------0-|---------------------||
|---------------------------|---------------------------||
|---------------------------|---------------------------||
|---------------------------|---------------------------||
|---------------------------|---------------------------||
|
| PM--| PM-| PM--| PM-| PM
|---------------------------|-----------------0----0----||
|----------------------7----|-----------------3----3----||
|------------7---------7----|-----4-----------2----2----||
|------------7---------7----|-----4---------------------||
|-5-5-5---5-----5---5-----5S|==2-----2---2-----------2--||
|---------------------------|---------------------------||

||-------------------h12--------------------------------h12-|--------------|
||o--------------h10-----h10------------------------h10-----|--------------|
||------------h7-------------h7------------------h7---------|--------------|
||--------h11-------------------h11----------h11------------|--------------|
||o----h9---------------------------h9----h9----------------|--------------|
||--h7---------------------------------h7-------------------|--------------|
|
| PM|
||----------------------------------------------------------|--------0-----|
||o---------------------------------------------------------|--------0-----|
||---4----------------------------------4-------------------|--9-----------|
||---4----------------------------------4-------------------|--9--------9--|
||o--2----------------------------------2-------------------|--7--------7--|
||----------------------------------------------------------|--0-0-0-------|

|---------------------h16-------------------------------------h14-|----------------||
|-----------------h14-----h14-----------------------------h12-----|---------------o||
|-------------h11-------------h11---------------------h11---------|----------------||
|---------h14---------------------h14-------------h14-------------|----------------||
|-----h12-----------------------------h12-----h12-----------------|---------------o||
|-h10-------------------------------------h10---------------------|----------------||
|
| PM|
|-----------------------------------------------------------------|--------0-------||
|-----------------------------------------------------------------|--------0------o||
|---7---------------------------------------7---------------------|--9-------------||
|---7---------------------------------------7---------------------|--9--------9----||
|---5---------------------------------------5---------------------|--7--------7---o||
|-----------------------------------------------------------------|--0-0-0---------||

|-----------------|
|-----------------------------------------------------------|
|-----------------------------------------------------------|
|-----------------------------------------------------------|
|-----------------------------------------------------------|
|-----------------------------------------------------------|
|
| PM-----| PM---------------------|
|-----------------------------------------------------------|
|-----------------------------------------------------------|
|--------------------9--------------------------------------|
|-9------------------9--------------------------------------|
|-7---------------------------------------------------------|
|----0---0---0---------------0-------0-------0-------0------|

|-----------------------|
|-----------------------------------------------------------------------|
|-----------------------------------------------------------------------|
|-----------------------------------------------------------------------|
|-----------------------------------------------------------------------|
|-----------------------------------------------------------------------|
|
| PM--------------|
|-----------------------------------------------------------------------|
|-----------------------------------------------------------------------|
|-----------------------------------------------------------------------|
|-10s12----------11--(11)------9------9s11---------------9--------------|
|--9s10-------9------------7----------7s=9---------------7--------------|
|-----------------------------------------------------------------------|

|----------------------------------------------------------------|
|-------------------------------------------------------|
|-------------------------|
|----------------------------------------------------------------|
|----------------------------------------------------------------|
|----------------------------------------------------------------|
|
| PM-----| PM-----| PM-----
|----------------------------------------------------------------|
|--------------------------------------------------7-------------|
|--------------------------7-----------------------7-------------|
|--------------------------7-----------------------7-------------|
|--5-------5---5---5---------------5-------5---------------5S====|
|----------------------------------------------------------------|

|---------------------------------------------0-0-0-|
|---x-x-----------------------|
|-----------------------------------------------------------|
|-----------------------------------------------------------|
|-----------------------------------------------------------|
|-----------------------------------------------------------|
|
|-| PM------| PM
|-----------------------------------0-----------------0-----|
|-----------------------------------3-----------------3-----|
|---------4-------------------------2-----------------2-----|
|---------4-------------------------------------------------|
|--2------------2---------2-------------------------------2-|
|-----------------------------------------------------------|

|-0-----------------|----(0)-x/------0----0----x\--------|
|-------------------|-----------------------------0-0-x/-|
|-------------------|------------------------------------|
|-------------------|------------------------------------|
|-------------------|------------------------------------|
|-------------------|------------------------------------|
|
| PM--| PM----| PM-----------|
|-------------------|------------------------------------|
|-------------------|------------------------------------|
|---------9---------|------------------------------------|
|-9-------9---------|-10s12-----11-(11)---9-9s11----9----|
|-7-----------------|--9s10--9----------7---7s=9----7----|
|---0-0-0---0-0-0-0-|------------------------------------|

\2.5
|--------------------------------|-------------------------|
|-0-0----------------------------|-------------------------|
|-------2b4r(2)b4==(2)-(2)-------|-(2)-----[2]---(2)r------|
|--------------------------------|-------------------------|
|--------------------------------|-------------------------|
|--------------------------------|-------------------------|
|
| PM--| PM-| PM--| PM| PM
|--------------------------------|----------------0----0---|
|----------------------------7---|----------------3----3---|
|-------------------7--------7---|-----4----------2----2---|
|-------------------7--------7---|-----4-------------------|
|-5-5-5-5---------------5--5---5S|==2----2--2------------2-|
|--------------------------------|-------------------------|

~~~~
|-----------------14b15-12-|----(12)-------14b16====(14)r----------|
|--------------12----------|---------------------------------------|
|--------------------------|---------------------------------------|
|--------------------------|---------------------------------------|
|--------------------------|---------------------------------------|
|-/xs====x-0---------------|---------------------------------------|
|
| PM--| PM---------| PM-------------|
|--------------------------|---------------------------------------|
|--------------------------|---------------------------------------|
|----------9---------------|---------------------------------------|
|--9-------9---------------|-10s=12----11-(11)--------9---9s11--9--|
|--7-----------------------|--9s=10--9------------7-------7s=9--7--|
|----0-0-0---0--0--0-----0-|---------------------------------------|

|---------------------16-17-|-19-19b21-----16pb17r(16)--------|
|------------17-19b20-------|--------------------------17-----|
|---------16----------------|-----------------------------16--|
|---------------------------|---------------------------------|
|---------------------------|---------------------------------|
|---------------------------|---------------------------------|
|
| PM--| PM| PM--| PM| PM
|---------------------------|---------------0-----------0-----|
|----------------------7----|---------------3-----------3-----|
|----------7-----------7----|-----4---------2-----------2-----|
|----------7-----------7----|-----4---------------------------|
|-5-5-5-5-----5--5--------5S|==2-------2-2-----------------2--|
|---------------------------|---------------------------------|

~~~~~~~ ~~~~~~~~~~~~
|---------------------------------|--------------------------------------|
|---------------------------17----|---------------17--------------17\----|
|-18b19r(18)---16-16-(16)------16-|----(16)-------------16---(16)--------|
|---------------------------------|--------------------------------------|
|---------------------------------|--------------------------------------|
|---------------------------------|--------------------------------------|
|
| PM---| PM------| PM----------|
|---------------------------------|--------------------------------------|
|---------------------------------|--------------------------------------|
|------------------9--------------|--------------------------------------|
|--9---------------9--------------|-10s=12----11-(11)----9-9s=11------9--|
|--7------------------------------|--9s=10--9---------7----7s==9------7--|
|---------0--0--0------0--0--0--0-|--------------------------------------|

|-------------------------|-----------()--------|
|-------------------|------------------x/----|
|--------------------------------|------------------------------|
|--------------------------------|------------------------------|
|--------------------------------|------------------------------|
|--------------------------------|------------------------------|
|
| PM---| PM-| PM--| PM-| PM
|--------------------------------|-------------------0----0-----|
|--------------------------7-----|-------------------3----3-----|
|---------------7----------7-----|------4------------2----2-----|
|---------------7----------7-----|------4-----------------------|
|-5---5--5---5-----5---5-------5S|==2-------2---2------------2--|
|--------------------------------|------------------------------|

PM ~~~~~~~~~~~~ ~~~~~
|----------------14b15-12-|----(12)-------17b19========(17)r-----|
|-0-----------12----------|--------------------------------------|
|-------------------------|--------------------------------------|
|-------------------------|--------------------------------------|
|-------------------------|--------------------------------------|
|-------------------------|--------------------------------------|
|
| PM--| PM---------| PM-------------|
|-------------------------|--------------------------------------|
|-------------------------|--------------------------------------|
|---------9---------------|--------------------------------------|
|-9-------9---------------|-10s=12----11-(11)------9-9s=11----9--|
|-7-----------------------|--9s=10--9------------7---7s==9----7--|
|---0-0-0---0--0--0-----0-|--------------------------------------|

|---21---(21)b22==(21)r(21)b22==(21)r(21)---|-19-17-19---19b21==(19)r(19)-17--|
|-------------------------------------------|---------------------------------|
|-------------------------------------------|---------------------------------|
|-------------------------------------------|---------------------------------|
|-------------------------------------------|---------------------------------|
|-------------------------------------------|---------------------------------|
|
| PM--| PM-----| PM--| PM| PM
|-------------------------------------------|-------------0------------0------|
|--------------------------------------7----|-------------3------------3------|
|-------------------7------------------7----|-----4-------2------------2------|
|-------------------7------------------7----|-----4---------------------------|
|-5--5-5---5-------------5--------5-------5S|==2-----2-2-------------------2--|
|-------------------------------------------|---------------------------------|

~~ ~~~~~~~~~~~~~~
|-19-----------------------------|-------------------16h17p16p===0-10h12p10p0-9h10p9p|
|--------17-17-(17)---(17)-(17)\-|---------------------------------------------------|
|--------------------------------|---------------------------------------------------|
|--------------------------------|---------------------------------------------------|
|--------------------------------|---------------------------------------------------|
|--------------------------------|---------------------------------------------------|
|
| PM--| PM--------| PM----------|
|--------------------------------|---------------------------------------------------|
|--------------------------------|---------------------------------------------------|
|------------9-------------------|---------------------------------------------------|
|--9---------9-------------------|-10s12---11-(11)----9-------9s11----------9--------|
|--7-----------------------------|--9s10-9---------7----------7s=9----------7--------|
|----0-0--0------0--0---0----0---|---------------------------------------------------|

~~~
|-0-7h9p==7p0---------------------|------------------------------||
|-------------7h9p7p0-------------|------------------------------||
|---------------------7h9p7s6h7s4h|=6b7==(6)-(6)------(6)r/------||
|---------------------------------|------------------------------||
|---------------------------------|------------------------------||
|---------------------------------|------------------------------||
|
| PM------| PM| PM--| PM-| PM
|---------------------------------|----------------0---0---------||
|---------------------------7-----|----------------3---3---------||
|-------------7-------------7-----|-------4--------2---2---------||
|-------------7-------------7-----|-------4----------------------||
|-5-5---5---5-------5-5---------5S|=2---------2--2----------2----||
|---------------------------------|------------------------------||

$
||-------------------h12--------------------------------h12-|--------------|
||o--------------h10-----h10------------------------h10-----|--------------|
||------------h7-------------h7------------------h7---------|--------------|
||--------h11-------------------h11----------h11------------|--------------|
||o----h9---------------------------h9----h9----------------|--------------|
||--h7---------------------------------h7-------------------|--------------|
|
| PM|
||----------------------------------------------------------|--------0-----|
||o---------------------------------------------------------|--------0-----|
||---4----------------------------------4-------------------|--9-----------|
||---4----------------------------------4-------------------|--9--------9--|
||o--2----------------------------------2-------------------|--7--------7--|
||----------------------------------------------------------|--0-0-0-------|

|---------------------h16-------------------------------------h14-|----------------||
|-----------------h14-----h14-----------------------------h12-----|---------------o||
|-------------h11-------------h11---------------------h11---------|----------------||
|---------h14---------------------h14-------------h14-------------|----------------||
|-----h12-----------------------------h12-----h12-----------------|---------------o||
|-h10-------------------------------------h10---------------------|----------------||
|
| PM|
|-----------------------------------------------------------------|--------0-------||
|-----------------------------------------------------------------|--------0------o||
|---7---------------------------------------7---------------------|--9-------------||
|---7---------------------------------------7---------------------|--9--------9----||
|---5---------------------------------------5---------------------|--7--------7---o||
|-----------------------------------------------------------------|--0-0-0---------||

Gtr III
|-16-17p=16p12------12--16-17p=16p12----12--16-17p=16p=12-|
|---------------17-------------------17-------------------|
|---------------------------------------------------------|
|---------------------------------------------------------|
|---------------------------------------------------------|
|---------------------------------------------------------|
|
| Gtr II
|------------------h12--------------------------------h12-|
|--------------h10-----h10------------------------h10-----|
|-----------h7-------------h7------------------h7---------|
|-------h11-------------------h11----------h11------------|
|----h9---------------------------h9----h9----------------|
|-h7---------------------------------h7-------------------|
|
| Gtr I
|---------------------------------------------------------|
|---------------------------------------------------------|
|--4----------------------------------4-------------------|
|--4----------------------------------4-------------------|
|--2----------------------------------2-------------------|
|---------------------------------------------------------|

|----12-16-17p16p12----12-16-17p16p12----12-16-17p==|
|-17----------------17----------------17------------|
|---------------------------------------------------|
|---------------------------------------------------|
|---------------------------------------------------|
|---------------------------------------------------|
|
|---------------------------------------------------|
|---------------------------------------------------|
|---------------------------------------------------|
|---------------------------------------------------|
|---------------------------------------------------|
|---------------------------------------------------|
|
| PM---|
|--------------------------0------------------------|
|--------------------------0------------------------|
|--------9------------------------------------------|
|--------9-----------------------------9------------|
|--------7-----------------------------7------------|
|--------0-----0-----0------------------------------|

|--16p=12------12--16--17p=16p=12------12--16--17p=16p=12------12-|
|----------17----------------------17----------------------17-----|
|-----------------------------------------------------------------|
|-----------------------------------------------------------------|
|-----------------------------------------------------------------|
|-----------------------------------------------------------------|
|
|---------------------h16-------------------------------------h14-|
|-----------------h14-----h14-----------------------------h12-----|
|-------------h11-------------h11---------------------h11---------|
|---------h14---------------------h14-------------h14-------------|
|-----h12-----------------------------h12-----h12-----------------|
|-h10-------------------------------------h10---------------------|
|
|-----------------------------------------------------------------|
|-----------------------------------------------------------------|
|---7---------------------------------------7---------------------|
|---7---------------------------------------7---------------------|
|---5---------------------------------------5---------------------|
|-----------------------------------------------------------------|

|-16-17p16p12----12-16-17p16p12----12-16-17p16p12--|
|-------------17----------------17-----------------|
|--------------------------------------------------|
|--------------------------------------------------|
|--------------------------------------------------|
|--------------------------------------------------|
|
|--------------------------------------------------|
|--------------------------------------------------|
|--------------------------------------------------|
|--------------------------------------------------|
|--------------------------------------------------|
|--------------------------------------------------|
|
| PM---|
|--------------------------0-----------------------|
|--------------------------0-----------------------|
|--------9-----------------------------------------|
|--------9-----------------------------9-----------|
|--------7-----------------------------7-----------|
|--------0-----0-----0-----------------------------|

|----12--16-17p=16p=12-----12--16-17p16p12-----12--16--17p|
|-17--------------------17------------------17------------|
|---------------------------------------------------------|
|---------------------------------------------------------|
|---------------------------------------------------------|
|---------------------------------------------------------|
|
|------------------h12--------------------------------h12-|
|--------------h10-----h10------------------------h10-----|
|-----------h7-------------h7------------------h7---------|
|-------h11-------------------h11----------h11------------|
|----h9---------------------------h9----h9----------------|
|-h7---------------------------------h7-------------------|
|
|---------------------------------------------------------|
|---------------------------------------------------------|
|--4----------------------------------4-------------------|
|--4----------------------------------4-------------------|
|--2----------------------------------2-------------------|
|---------------------------------------------------------|

|-16p12----12-16-17p16p12----12-16-17p16p12----12--|
|-------17----------------17----------------17-----|
|--------------------------------------------------|
|--------------------------------------------------|
|--------------------------------------------------|
|--------------------------------------------------|
|
|--------------------------------------------------|
|--------------------------------------------------|
|--------------------------------------------------|
|--------------------------------------------------|
|--------------------------------------------------|
|--------------------------------------------------|
|
| PM---|
|--------------------------0-----------------------|
|--------------------------0-----------------------|
|--------9-----------------------------------------|
|--------9-----------------------------9-----------|
|--------7-----------------------------7-----------|
|--------0-----0-----0-----------------------------|

|--16--17p=16p=12------12--16--17p=16p=12------12--16--17p=16p=12-|
|------------------17----------------------17---------------------|
|-----------------------------------------------------------------|
|-----------------------------------------------------------------|
|-----------------------------------------------------------------|
|-----------------------------------------------------------------|
|
|---------------------h16-------------------------------------h14-|
|-----------------h14-----h14-----------------------------h12-----|
|-------------h11-------------h11---------------------h11---------|
|---------h14---------------------h14-------------h14-------------|
|-----h12-----------------------------h12-----h12-----------------|
|-h10-------------------------------------h10---------------------|
|
|-----------------------------------------------------------------|
|-----------------------------------------------------------------|
|---7---------------------------------------7---------------------|
|---7---------------------------------------7---------------------|
|---5---------------------------------------5---------------------|
|-----------------------------------------------------------------|

To Coda
2/4
|----12-16-17p16p12----12-0-----|-(0)-----||
|-17----------------17----------|---------||
|-------------------------------|---------||
|-------------------------------|-------x-||
|-------------------------------|---------||
|-------------------------------|---------||
|
|-------------------------------|---------||
|-------------------------------|---------||
|-------------------------------|---------||
|-------------------------------|---------||
|-------------------------------|---------||
|-------------------------------|---------||
|
| PM---|
|-------------------------0-----|---------||
|-------------------------0-----|---------||
|--------9----------------------|--7s9----||
|--------9-------------------9--|--7s9--9-||
|--------7-------------------7--|--5s7--9-||
|--------0-----0-----0----------|-------7-||

4/4
Gtr II
PM--| PM------|
|------------------|-----------------|------------------|-------------------|
|------------9-----|-7-9-------------|------------9-----|-12-12-------------|
|------------7-----|-7---------------|------------7-----|--7--7---7-7-------|
|--9-------x-----x-|-----x-x-9-9-9-9-|--9-------x-----x-|-------------9-9-9-|
|------------------|-----------------|------------------|-------------------|
|------------------|-----------------|------------------|-------------------|
|
| Gtr I
| PM--| PM| PM| PM--| PM| PM|
|------------------|-----------------|------------------|-------------------|
|------------------|-----------------|------------------|-------------------|
|------------7-----|-7-------7s9-----|------------7-----|--7--------7s9-----|
|-(9)--------9-----|-9-------7s9---9-|-(9)--------9-----|--9--------7s9---9-|
|-(9)--------------|---------5s7---9-|-(9)--------------|-----------5s7---9-|
|-(7)--7-7-7---7-7-|-----7-7-------7-|-(7)--7-7-7---7-7-|-------7-7-------7-|

PM-|
|------------------|----------------|------------------|--------16b17========|
|------------9-----|-7-9------------|------------9-----|-9------17b18========|
|------------7-----|-7-9-----7------|------------7-----|---------------------|
|--9-------x-----x-|-----x-x---9--9-|--9-------x-----x-|-9-------------------|
|------------------|----------------|------------------|---------------------|
|------------------|----------------|------------------|---------------------|
|
| PM--| PM| PM| PM--| PM| PM|
|------------------|----------------|------------------|---------------------|
|------------------|----------------|------------------|---------------------|
|------------7-----|-7-------7s9----|------------7-----|-7-------7s====9-----|
|-(9)--------9-----|-9-------7s9--9-|-(9)--------9-----|-9-------7s====9--9--|
|-(9)--------------|---------5s7--9-|-(9)--------------|---------5s====7--9--|
|-(7)--7-7-7---7-7-|-----7-7------7-|-(7)--7-7-7---7-7-|----7-7-----------7--|

|-(16)------(16)r-------|-------------------------------|
|-(17)------(17)r-------|-------------------------------|
|-----------------------|--------[4]b6==([4])r==([4])-4-|
|-----------------------|-------------------------------|
|---------------------xs|=xsx\--------------------------|
|-----------------------|-------------------------------|
|
|-----------------------|-------------------------------|
|-----------------------|-------------------------------|
|-----------------------|-----------------7s==9---------|
|--(9)------------9-----|-7-9-------------7s==9-------9-|
|--(9)------------9-----|-7-9-------------5s==7-------9-|
|--(7)--7-7---7-----7-7-|------7--7-------------------7-|

~~~~~~~~ PM----------|
|--------------------|-------------------------------|
|--------------------|-------------------------------|
|--2-----------------|------------------------6-7-9--|
|-----4-2-1----2-4---|--------------7---6h7-9--------|
|-----------/5-----5-|-(5)-5/---7h9---9--------------|
|--------------------|-------------------------------|
|
|--------------------|-------------------------------|
|--------------------|-------------------------------|
|--------------------|--------------7s==9------------|
|-(9)----------9-----|--7--9--------7s==9-------9----|
|-(9)----------9-----|--7--9--------5s==7-------9----|
|-(7)---7-7--7---7-7-|--------7-7---------------7----|

|----------7-9h10p9p7----7-9p7-10p7-9p7-|
|--7--9-10------------10----------------|
|---------------------------------------|
|---------------------------------------|
|---------------------------------------|
|---------------------------------------|
|
|---------------------------------------|
|---------------------------------------|
|---------------------------------------|
|-(9)----------------------9------------|
|-(9)----------------------9------------|
|-(7)--------7----7----7--------7---7---|

T T T
|----7-9-10p9p7h10p7-14p10-14p10p9p7-13s14s13h14p10p9p7-|
|-10----------------------------------------------------|
|-------------------------------------------------------|
|-------------------------------------------------------|
|-------------------------------------------------------|
|-------------------------------------------------------|
|
|-------------------------------------------------------|
|-------------------------------------------------------|
|---------------------7s=======9------------------------|
|--7---9--------------7s=======9---------------9--------|
|--7---9--------------5s=======7---------------9--------|
|-----------7----7-----------------------------7--------|

T T T T
|-13s=14s13p10p9p7-13s14s13p10p9p7-13s14s13p10p9p7-13s14s13p10p9p7-||
|------------------------------------------------------------------||
|------------------------------------------------------------------||
|------------------------------------------------------------------||
|------------------------------------------------------------------||
|------------------------------------------------------------------||
|
|------------------------------------------------------------------||
|------------------------------------------------------------------||
|------------------------------------------------------------------||
|-(9)----------------------------------------9---------------------||
|-(9)----------------------------------------9---------------------||
|-(7)---------------7--------7------7---------------7--------7-----||

T T T T
|-13s14s13p10p9p7-13s16p7s10-/17s18p17p13p10-17s18s17p13p10-|
|-----------------------------------------------------------|
|-----------------------------------------------------------|
|-----------------------------------------------------------|
|-----------------------------------------------------------|
|-----------------------------------------------------------|
|
| PM---|
|-----------------------------------------------------------|
|-----------------------------------------------------------|
|-----------------------------------------------------------|
|--7--------9------------------8-------10--------------5----|
|--7--------9------------------8-------10--------------5----|
|------------------7----7------6--------8--------------3----|

T T T T
|-17s=18s17p13p10-17s18s17p13p10-17s18s17p13p10-17s18s17p13p10-|
|--------------------------------------------------------------|
|--------------------------------------------------------------|
|--------------------------------------------------------------|
|--------------------------------------------------------------|
|--------------------------------------------------------------|
|
| PM------------| PM------|
|--------------------------------------------------------------|
|--------------------------------------------------------------|
|--------------------------------------------------------------|
|-(5)--------------------------------------5-------------------|
|-(5)--------------------------------------5-------------------|
|-(3)--------------3--------3-----3--------------3--------3----|

|-17s18s17-(17)/--------20b22===(20)r=|
|-------------------------------------|
|-------------------------------------|
|-------------------------------------|
|------------------0-(0)--------------|
|-------------------------------------|
|
| PM|
|-------------------------------------|
|-------------------------------------|
|-------------------------------------|
|--3---------5--------8s10--------5---|
|--3---------5--------8s10--------5---|
|----------------3-3--6s=8--------3---|

~~~~~~~~~
|-(20)-17b18==(17)r(17)----------------|-------------------------------------|
|-----------------------18-------17----|-------------------------------------|
|--------------------------17s15-------|-------------15p12-15p12----15p12----|
|-----------------------------------14-|-(14)---x/---------------12-------14-|
|--------------------------------------|-------------------------------------|
|--------------------------------------|-------------------------------------|
|
| PM----| PM| PM-|
|--------------------------------------|-------------------------------------|
|--------------------------------------|-------------------------------------|
|--------------------------------------|-------------------------------------|
|--(5)-------------------------5-------|---3--5-------8s===10-----------5----|
|--(5)-------------------------5-------|---3--5-------8s===10-----------5----|
|--(3)---------------3---3--3-----3--3-|--------3--3--6s====8-----------3----|

|----------------------------------------------------|
|----------------------------------------------------|
|-15p=12-15p12----15p12----15p12-15p12----15p12------|
|--------------14-------14-------------14-------14---|
|----------------------------------------------------|
|----------------------------------------------------|
|
| PM---------| PM---|
|----------------------------------------------------|
|----------------------------------------------------|
|----------------------------------------------------|
|-(5)-----------------------------5------------------|
|-(5)-----------------------------5------------------|
|-(3)-----------3-----3-----3-----------3-----3------|

|------------------------------------13---------|
|-------------------13b15==(13)(13)r----15---14-|
|-15p12-15p12-----------------------------------|
|-------------14p12-----------------------------|
|-----------------------------------------------|
|-----------------------------------------------|
|
| PM---|
|-----------------------------------------------|
|-----------------------------------------------|
|-----------------------------------------------|
|--3-----5-------------------8s=10---------5----|
|--3-----5-------------------8s=10---------5----|
|--------------3-----3-------6s==8---------3----|

~~
|-----15----13------------------------------|-----------------------------||
|-13-----14----15---14-13-------------------|----------------8s10-10-10---||
|-------------------------15---12-10--------|-12---(12)sx\---9s11-11-11---||
|------------------------------------12s==8-|-----------------------------||
|-------------------------------------------|-----------------------------||
|-------------------------------------------|-----------------------------||
|
| PM--------| PM---| PM-|
|-------------------------------------------|-----------------------------||
|-------------------------------------------|-----------------------------||
|-------------------------------------------|--------------7s===9--7------||
|-(5)------------------------5--------------|--3-5---------7s===9--7--9---||
|-(5)------------------------5--------------|--3-5---------5s===7--5--9---||
|-(3)--------3----3-----3----------3----3---|--------3--3-------------7---||

|----------------------------|----------------|
|-8s10--10-10-8s10-10-10-9---|-7---9-7-9-7----|
|-9s11--11-11-9s11-11-11-9---|-7---9-7-9-7----|
|--------------------------9-|-----9-7-9-7--9-|
|----------------------------|----------------|
|----------------------------|----------------|
|
|----------------------------|----------------|
|----------------------------|----------------|
|----------------------------|---------7s9----|
|---(9)----------------9-----|-7-9-----7s9--9-|
|---(9)----------------9-----|-7-9-----5s7--9-|
|---(7)-----7----7--7----7-7-|-----7-7------7-|

|-------------------|-------------------------|
|-----7-------7-----|-------------------------|
|-----7-------7---9-|-7-9-7-(7)\-x/14tr16-----|
|--7------9-7---9-9-|-7-9-7-(7)\-x/-----------|
|-------------------|-------------------------|
|-------------------|-------------------------|
|
|-------------------|-------------------------|
|-------------------|-------------------------|
|-------------------|------------7s=9---------|
|-(9)---------9-----|-7-9--------7s=9------9--|
|-(9)---------9-----|-7-9--------5s=7------9--|
|-(7)---7-7-7---7-7-|-----7--7-------------7--|

~~~~~~~~~
|---------------------19b22---19-|-(19)-----------14-16-17-|
|--------------------------------|----------12s15----------|
|-(14tr16)-14/-------------------|-------------------------|
|--------------x/----------------|-------------------------|
|--------------------------------|-------------------------|
|--------------------------------|-------------------------|
|
|--------------------------------|-------------------------|
|--------------------------------|-------------------------|
|--------------------------------|--------------7s=9-------|
|--(9)-----------------9---------|---7--9-------7s=9-----9-|
|--(9)-----------------9---------|---7--9-------5s=7-----9-|
|--(7)---------7--7-7-------7--7-|--------7--7-----------7-|

2/4
~~~~~~~~~
|-------------------------|------------||
|-15----------------------|------------||
|-----16----0-------------|------------||
|--------14---12----------|------------||
|----------------14-12-14-|-(14)-------||
|-------------------------|------x/----||
|
|-------------------------|------------||
|-------------------------|------------||
|-------------------------|---4--------||
|-(9)-------------9-------|---4--------||
|-(9)-------------9-------|---2--------||
|-(7)-----7-7--7-----7--7-|------------||

4/4
/1\ /1\ /1\ /1\ /1\
|------------------|---------------------2h==3h==|
|------------------|-----------4h==5-------------|
|-/4---------------|-(4)h5-----------------------|
|------------------|-----------------------------|
|------------------|-----------------------------|
|------------------|-----------------------------|
|
| PM------------------------|
|------------------|---------------0-------------|
|------------------|--4--4-------------0h1-------|
|------4-----4-----|-------------------------2---|
|----4-----4-----4-|-----------------------------|
|--2-----3-----2---|---------2-0-----------------|
|------------------|-----------------------------|

/1\ /1\ /1\
~~~
|-5p======3---(3)p==2-----|-(2)---------------|
|-------------------------|-------------------|
|-------------------------|-------------------|
|-------------------------|-------------------|
|-------------------------|-------------------|
|-------------------------|-------------------|
|
| PM------------------------------|
|-------------------------|-----------0-------|
|-------------------------|--4--4-------0h1---|
|-------4---------4-------|-----------------2-|
|-----4--------4--------4-|-------------------|
|-2-------3---------2-----|-------2-0---------|
|-------------------------|-------------------|

~~~
|-/7---------------|-(7)---------------|
|------------------|-------------------|
|------------------|-------------------|
|------------------|-------------------|
|------------------|-------------------|
|------------------|-------------------|
|
| PM----------------------|
|------------------|-----------0-------|
|------------------|--4--4-------0h1---|
|------4-----4-----|-----------------2-|
|----4-----4-----4-|-------------------|
|--2-----3-----2---|-------2-0---------|
|------------------|-------------------|

~~~~
|-----------------19--|-(19)----(19)--------||
|-------19-(19)-------|---------------------||
|-16------------------|---------------------||
|---------------------|---------------------||
|---------------------|---------------------||
|---------------------|---------------------||
|
|---------------------|---------------------||
|---------------------|---------------------||
|--4--4--5--(5)-5--4--|--(4)-----------(4)/-||
|--4--4--5--(5)-5--4--|--(4)-----------(4)/-||
|--2--2--3--(3)-3--2--|--(2)-----------(2)/-||
|---------------------|---------------------||

/1\ \7
|-19---(19)------------------|--------------------|
|----------------------------|--------------------|
|----------------------------|--------------------|
|----------------------------|--------------------|
|----------------------------|--------------------|
|----------------------------|--------------------|
|
| PM---------|
|----------------------------|--------------------|
|----------------------------|--------------------|
|----------------------------|--------------------|
|---------------11-(11)-12---|--------------------|
|----------------7--(7)--7---|--------------------|
|--0-----0--0-0--------------|--0-3-0-5b6r(5)-3p0-|

|----------------------|-----------------|
|----------------------|-----------------|
|----------------------|-----------------|
|----------------------|-----------------|
|----------------------|-----------------|
|----------------------|-----------------|
|
| PM----| ~
|----------------------|-----------------|
|----------------------|-----------------|
|----------------------|-----------------|
|---------12-(12)-11---|-----------------|
|----------7--(7)--7---|------------5----|
|-0-0-0-0--------------|--0-3-0-6h7------|

|----------------------|--------------------|
|----------------------|--------------------|
|----------------------|--------------------|
|----------------------|--------------------|
|----------------------|--------------------|
|----------------------|--------------------|
|
| PM----|
|----------------------|--------------------|
|----------------------|--------------------|
|----------------------|--------------------|
|---------11-(11)-12---|--------------------|
|----------7--(7)--7---|--------------------|
|-0-0-0-0--------------|--0-3-0-5b6r(5)-3p0-|

\7____________
|----------------------|-------------||
|----------------------|-------------||
|----------------------|-------------||
|----------------------|-0----(0)----||
|----------------------|-------------||
|----------------------|-------------||
|
| PM----|
|----------------------|-------------||
|----------------------|-------------||
|----------------------|-------------||
|---------12-(12)-11---|-------------||
|----------7--(7)--7---|-------------||
|-0-0-0-0--------------|-------------||

/
~~~~~~~~~~~~
|------------------14b15-12-|----(12)-------14b16====(14)r----------|
|---------------12----------|---------------------------------------|
|---------------------------|---------------------------------------|
|-(0)-----------------------|---------------------------------------|
|---------------------------|---------------------------------------|
|---------------------------|---------------------------------------|
|
| PM--| PM---------| PM-------------|
|---------------------------|---------------------------------------|
|---------------------------|---------------------------------------|
|-----------9---------------|---------------------------------------|
|--9--------9---------------|-10s=12----11-(11)--------9---9s11--9--|
|--7------------------------|--9s=10--9------------7-------7s=9--7--|
|-----0-0-0---0--0--0-----0-|---------------------------------------|

|-------------------16-17-19-|-19-19b21-----16pb17r(16)--------|
|--------17-19b21------------|--------------------------17-----|
|---16-----------------------|-----------------------------16--|
|----------------------------|---------------------------------|
|----------------------------|---------------------------------|
|----------------------------|---------------------------------|
|
| PM--| PM| PM--| PM| PM
|----------------------------|---------------0-----------0-----|
|-----------------------7----|---------------3-----------3-----|
|------------7----------7----|-----4---------2-----------2-----|
|------------7----------7----|-----4---------------------------|
|-5--5-5--5-------5--5-----5S|==2-------2-2-----------------2--|
|----------------------------|---------------------------------|

~~ ~~~~~~~
|-----------------------------|-----------------------------------|
|-17--------------------------|-------------------------------|
|--------16-16-(16)---(16)\---|---------------------------------------------|
|-----------------------------|---------------------------------------------|
|-----------------------------|---------------------------------------------|
|-----------------------------|---------------------------------------------|
|
| PM--| PM---------| PM-----------|
|-----------------------------|---------------------------------------------|
|-----------------------------|---------------------------------------------|
|------------9----------------|---------------------------------------------|
|--9---------9----------------|-10s12------11-(11)-----9--9s11-------9------|
|--7--------------------------|--9s10---9----------7------7s=9-------7------|
|----0-0--0------0--0---0---0-|---------------------------------------------|

|-----------()---------|---------0-------|
|--------------------------|--------------------------|
|-----------------------------------|-----------------------------|
|-----------------------------------|-----------------------------|
|-----------------------------------|-----------------------x\----|
|-----------------------------------|-----------------------------|
|
| PM--| PM--| PM--| PM-| PM
|-----------------------------------|------------------0----0-----|
|-----------------------------7-----|------------------3----3-----|
|---------------7-------------7-----|------4-----------2----2-----|
|---------------7-------------7-----|------4----------------------|
|---5--5-5--5--------5----5-------5S|==2-------2---2-----------2--|
|-----------------------------------|-----------------------------|

~~~~~~~~~~~~ ~~~~~
|-----------------14b15-12-|----(12)-------17b19========(17)-(17)r----|
|--------------12----------|------------------------------------------|
|--------------------------|------------------------------------------|
|--------------------------|------------------------------------------|
|--------------------------|------------------------------------------|
|-0-------x/---------------|------------------------------------------|
|
| PM--| PM---------| PM-------------|
|--------------------------|------------------------------------------|
|--------------------------|------------------------------------------|
|---------9----------------|------------------------------------------|
|-9-------9----------------|-10s=12----11-(11)------9-9s=11--------9--|
|-7------------------------|--9s=10--9------------7---7s==9--------7--|
|---0-0-0----0--0--0-----0-|------------------------------------------|

|---------19b21==(19)r(19)---21-|---21b23====(21)r==(21)-19------|
|-------------------------------|-----------------------------22-|
|-------------------------------|--------------------------------|
|-------------------------------|--------------------------------|
|-------------------------------|--------------------------------|
|-------------------------------|--------------------------------|
|
| PM--| PM-| PM--| PM-| PM
|-------------------------------|---------------------0-----0----|
|--------------------------7----|---------------------3-----3----|
|----------7---------------7----|----------4----------2-----2----|
|----------7---------------7----|----------4---------------------|
|-5-5-5-5----------5----5-----5S|=2------------2--2------------2-|
|-------------------------------|--------------------------------|

~~~~
|-19----------------------|
|-------------------------|
|--------20-20-(20)-------|
|-------------------------|
|-------------------------|
|-------------------------|
|
| PM--| PM-----|
|-------------------------|
|-------------------------|
|------------9------------|
|--9---------9------------|
|--7----------------------|
|----0-0--0------0--0-0-0-|

|-------16h17p=16p=0-14h16p==14p0-12h14p12p0-10h12p10p=|
|------------------------------------------------------|
|------------------------------------------------------|
|------------------------------------------------------|
|------------------------------------------------------|
|------------------------------------------------------|
|
| PM----------|
|------------------------------------------------------|
|------------------------------------------------------|
|------------------------------------------------------|
|-10s12----11-(11)----9----9s11----------9-------------|
|--9s10--9---------7-------7s=9----------7-------------|
|------------------------------------------------------|

D.S. al Coda
~~~~~~~
|-0-9h10p==9p0-----------------------------|--------------------------||
|--------------9h10p9p0-7h9p7p0------------|--------------------------||
|-------------------------------6b7r(6)b7==|=(6)-----(6)-(6)--(6)r\---||
|------------------------------------------|--------------------------||
|------------------------------------------|--------------------------||
|------------------------------------------|--------------------------||
|
| PM-------| PM| PM-----------| PM| PM
|------------------------------------------|--------------0----0------||
|-----------------------------7------------|--------------3----3------||
|--------------7--------------7------------|-----4--------2----2------||
|--------------7--------------7------------|-----4--------------------||
|-5-5----5---5--------5-5-------5S=========|==2----2--2-------------2-||
|------------------------------------------|--------------------------||

&
Gtr III
\1.5
|-(0)------------------------------------------------(0)-----|-(0)--------------|
|------------------------------------------------------------|------------------|
|------------------------------------------------------------|------------------|
|------------------------------------------------------------|------------------|
|------------------------------------------------------------|------------------|
|------------------------------------------------------------|------------------|
|
| Gtr II
|-------------------h12----------------------------------h12-|------------------|
|---------------h10-----h10-------------------------h10------|------------------|
|------------h7-------------h7-------------------h7----------|------------------|
|--------h11-------------------h11-----------h11-------------|------------------|
|-----h9----------------------------h9----h9-----------------|------------------|
|-h7-----------------------------------h7--------------------|------------------|
|
| Gtr I
| PM--|
|------------------------------------------------------------|-------------0----|
|------------------------------------------------------------|-------------0----|
|--4----------------------------(4)--------------------------|------------------|
|--4----------------------------(4)-----7--------------------|-(7)--------------|
|--2----------------------------(2)-----4--------------------|-(4)--------------|
|------------------------------------------------------------|-------0-0-0------|

PM--|
|------------------------------------------------------------------|---------------------|
|------------------------------------------------------------------|---------------------|
|------------------------------------------------------------------|-----7-7-6-4-4-------|
|------------------------------------------------------------------|---------------7-6---|
|------------------------------------------------------------------|---------------------|
|------------------------------------------------------------------|---------------------|
|
|---------------------h16--------------------------------------h14-|---------------------|
|-----------------h14-----h14------------------------------h12-----|---------------------|
|-------------h11-------------h11----------------------h11---------|---------------------|
|---------h14---------------------h14--------------h14-------------|---------------------|
|-----h12------------------------------h12-----h12-----------------|---------------------|
|-h10--------------------------------------h10---------------------|---------------------|
|
| PM--|
|------------------------------------------------------------------|-----------0---------|
|------------------------------------------------------------------|-----------0---------|
|--------------------------------------------2---------------------|-(2)-----------------|
|---4------------------------------(4)-------2---------------------|-(2)-----------------|
|---5------------------------------(5)-----------------------------|---------------------|
|------------------------------------------------------------------|-----0-0-0-----------|

|-----------------------------------------------------------|-------------------------|
|-----------------------------------------------------------|-------------------------|
|-----------------4-----------------------------------------|-------------------------|
|-(6)h=====7--------------7-----(7)-----4h=====6------------|--4h=6p4s2-4-2h4p2-------|
|-----------------------------------------------------------|-------------------5-4p2-|
|-----------------------------------------------------------|-------------------------|
|
|-------------------h12---------------------------------h12-|-------------------------|
|---------------h10-----h10-------------------------h10-----|-------------------------|
|------------h7-------------h7-------------------h7---------|-------------------------|
|--------h11-------------------h11-----------h11------------|-------------------------|
|-----h9----------------------------h9----h9----------------|-------------------------|
|-h7-----------------------------------h7-------------------|-------------------------|
|
| PM--|
|-----------------------------------------------------------|-----------------0-------|
|-----------------------------------------------------------|-----------------0-------|
|--4----------------------------(4)-------------------------|-------------------------|
|--4----------------------------(4)-----7-------------------|-(7)---------------------|
|--2----------------------------(2)-----4-------------------|-(4)---------------------|
|-----------------------------------------------------------|---------0-0-0-----------|

|-----------------------------------------------------------------------|----------------------||
|-----------------------------------------------------------------------|----------------------||
|-----------------------------------------------------------------------|----------------------||
|-----------------------------------------------------------------------|----------------------||
|---4b5=======(4)r=====(4)-------2------(2)-------4-------2-------------|-----------2--(2)/----||
|-----------------------------------------------------------------------|--4--0-0-0-0--(0)-----||
|
|--------------------------h16--------------------------------------h14-|----------------------||
|---------------------h14------h14------------------------------h12-----|----------------------||
|-----------------h11--------------h11----------------------h11---------|----------------------||
|------------h14-----------------------h14--------------h14-------------|----------------------||
|--------h12--------------------------------h12-----h12-----------------|----------------------||
|-h10-------------------------------------------h10---------------------|----------------------||
|
| PM--|
|-----------------------------------------------------------------------|-----------0----------||
|-----------------------------------------------------------------------|-----------0----------||
|-------------------------------------------------2---------------------|-(2)------------------||
|---4-----------------------------------(4)-------2---------------------|-(2)------------------||
|---5-----------------------------------(5)-----------------------------|----------------------||
|-----------------------------------------------------------------------|-----0-0-0------------||

Outro
1. 2.
2/4 4/4
Gtrs I, II
PM PM----|
|----------||-------------------|---------------------||-------------------||
|--------9-||o-(9)-9-9----------|------------------9-o||-------------------||
|--------9-||--(9)-9-9----------|------------------9--||-------------------||
|--12s11-9-||--(9)-9-9---7s6--4-|-(4)-4------12s11-9--||--(4)--4-----------||
|--10s=9-7-||o-(7)-7-7---5s4--2-|-(2)-2-2/---10s=9-7-o||--(2)--2---5-4---2-||
|----------||----------7--------|---------------------||---------0-3-2-0-0-||

Gtr II
|------------|------------|-----------------|-------------*|
|------------|------------|-----------------|-------------*|
|------------|------------|-----------------|--9--9-------*|
|------------|------------|-----------------|--9--9-------*|
|-(2)--------|-(2)--------|--xS==x\--7s=1---|--7--7-------*|
|-(0)--------|-(0)--------|--xS==x\--7s=1p0-|-------------*|
|
| Gtr I
|------------|------------|-----------------|-------------*|
|------------|------------|-----------------|-------------*|
|------------|------------|-----------------|-------------*|
|------------|------------|-----------------|-------------*|
|--2---------|-(2)--------|-(2)-------------|-(2)---------*|
|--0---------|-(0)--------|-(0)-------------|-(0)---------*|

Nike Phantom Vision DF SG