Crushing Day Tab by Satriani Joe

Standard Tuning, Distortion

---------------------------------------------------------| (palm mute open
---------------------------------------------------------| parts)
5-x-5-0-0-0-5-x-5-0-0-0-5-x-5-0-0-0-5-x-5----------------|
5-x-5-0-0-0-4-x-4-0-0-0-5-x-5-0-0-0-4-x-4----------------|
3-x-3-0-0-0-3-x-3-0-0-0-3-x-3-0-0-0-3-x-3---------0-1-2--|
------------------------------------------0-1-2-3--------|

---------------------------------------------------------|
---13--13s16---------13--13s16---------------------------|
12-----------14---12-----------14--12-11~~---------------|
---------------------------------------------------------|
---------------------------------------------------------|
---------------------------------------------------------|

-------------------------------------15-------------------|
---13--13s16--------------15---13s15----18-16-------------|
12-----------14--14-15-17---------------------19-19h17-17-|
-----------------------------17---------------------------|
----------------------------------------------------------|
----------------------------------------------------------|

--------------------15-----------------------------------|
---------15---13s15----18-16-----------------------------|
14-15-17---------------------19-19h17-17-----------------|
-----------17--------------------------------------------|
---------------------------------------------------------|
---------------------------------------------------------|

Nike Reveal Toronto-Inspired Air Max 97 Ultra