Come Together Tab by The Beatles

|----------------------------|

|--15b---------15b-15b15r13--|

|----------------------------|

|----------------------------|

|----------------------------|

|----------------------------|

                                                                               

--------------------|----------------------------|----------------------------|

--15b---------------|--15b---------15b-15b15r13--|----------------------------|

--------------------|----------------------------|--12b---------12b-12b12r10--|

--------------------|----------------------------|----------------------------|

--------------------|----------------------------|----------------------------|

--------------------|----------------------------|----------------------------|

                                                                             

                                                                  

--------------------|------------13b-13r-10--|--------------------|

--13b---------------|------------------------|--13b---------------|

--------------------|------------------------|--------------------|

--------------------|------------------------|--------------------|

--------------------|------------------------|--------------------|

--------------------|------------------------|--------------------|

                                                                      

------------------------|--------------------|------------13--13r-10--|

------------------------|--13~---------------|------------------------|

------------10--12r-10--|--------------------|------------------------|

------------------------|--------------------|------------------------|

------------------------|--------------------|------------------------|

------------------------|--------------------|------------------------|

                                                                  

--------------------|------------------------|--15b---------------|

--13b---------------|------------10--13r-10--|--------------------|

--------------------|------------------------|--------------------|

--------------------|------------------------|--------------------|

--------------------|------------------------|--------------------|

--------------------|------------------------|--------------------|

                                                                      

------------15b-15r-13--|--15b---------------|------------17b-20r-17--|

------------------------|--------------------|------------------------|

------------------------|--------------------|------------------------|

------------------------|--------------------|------------------------|

------------------------|--------------------|------------------------|

------------------------|--------------------|------------------------|

                                                                  

--20b---------------|------------17b-20r-17--|--20b---------------|

--------------------|------------------------|--------------------|

--------------------|------------------------|--------------------|

--------------------|------------------------|--------------------|

--------------------|------------------------|--------------------|

--------------------|------------------------|--------------------|

                                                                      

------------15--15r-13--|--15b---------------|------------------------|

------------------------|--------------------|------------------------|

------------------------|--------------------|------------10--12r-10--|

------------------------|--------------------|------------------------|

------------------------|--------------------|------------------------|

------------------------|--------------------|------------------------|

                                                                  

--------------------|------------13b-13r-10--|--------------------|

--13b---------------|------------------------|--13b---------------|

--------------------|------------------------|--------------------|

--------------------|------------------------|--------------------|

--------------------|------------------------|--------------------|

--------------------|------------------------|--------------------|

                          

-----------13b-x-13r-10--||

-------------------------||

-------------------------||

-------------------------||

-------------------------||

-------------------------||

New Balance M530PSB