Allan Holdsworth - Sphere of Innocence Tab

-=Intro=-

x x x x
x---7 x---12 x---9 x---5
6 11 8 4
x-----9 RH x-----14 RH x----11 RH x----7 RH
6 11 7 4
4 9 5 2

G# C# A F#

-=Head Chords=- (-=Pivot Chord=-)
b_IV
12 7 9 4
x x x x
x------13 8 x------11 x----------4
x----16 x x----14 x
14 11 12 7
x 9 x 5

E C# D A

-=Lead Up=-

x x x
7--------7 x-9-(9)---9
x x x
x-----9 11 10
x--11------11 x 13
9 13 11

C# C# G#

-=Climb=-

b_VII
x x 10 x
9------9 10------10 x x------12
7------(7) x x-------8 13
x------9 11------11 9 x
7------7 9 x 12
x x x 10

E F# A B D

(-=Top Chord=-) -=Climax=-
b_IX b_VII
12 14 16 9 x
x x x x 7
13 16 x---17 x---9 7
11 14 15 x 7
9 10 11 12 x
x x x 10 3

F# C C# D G

-=Aftermath=-
b_V
0 2 (2)--2 4------4 5 x---7
x---------0 (0) (0) x x x
1-------1 x---3 4 6 x 9
x---2 x x x x---9 LH x
x-----2 4 6 6 7 9
0 (0) (0) 4 5 7

E B G# A G

(-=Pause=-)
b_XIV
x---14
14
x------19
9
14
15

G

-=Bridge=-
b_VI b_IV
x----9 6 x----9 4 x-----6
x x--------6 7-------7 4 x
11------11 x 6 x 8
x x x x x
11 x---9 8 7 5
9 x-----7 x 5 x

C# B Bb A D

-=Lead Up=-

x x x
7--------7 x-9-(9)---9
x x x
x-----9 11 10
x--11------11 x 13
9 13 11

C# C# G#

-=Climb=-
b_VII
x x 10 x
9------9 10------10 x x------12
7------(7) x x-------8 13
x------9 11------11 9 x
7------7 9 x 12
x x x 10

E F# A B D F#

(-=Top Chord=-) -=Climax=-
b_IX b_VII
12 14 16 9 x
x x x x 7
13 16 x---17 x---9 7
11 14 15 x 7
9 10 11 12 x
x x x 10 3

A C C# D G

-=Aftermath=- (-=Gliss?=-)
b_V
0 2 (2)--2 4--------4 5 7
x---------0 (0) (0) x x x
1-------1 x---3 4 6 x 9
x---2 x x x x---9 LH x
x-----2 4 6 6 7 9
0 (0) (0) 4 5 7

E B G# A B

-=Head Chords=- (-=Mod. Pivot Chord=-)
b_V
12 7 9 5
x x x x
x------13 8 x------11 x----------5
x----16 x x----14 x
14 11 12 8
x 9 x 6

E C# D Bb

-=A Different Path=-
b_IX
x------10 8 x----------------11--11
x x-------11 9----9---9---9-----------9
12 x 9----9---9
x x x------------13
14 11 11
12 9 9

A C# C# B

(-=Expressively=-) -=Modulated Intro Chords=-
b_VI b_I b_VI b_II
x--9 x x 2
x x---4 x---9 2
6-----6 3 8 x
10------10 LH x------6 RH x------11 RH x
8 3 8 4
6 1 6 2

Bb F F Gb

-=Modulated Head Chords=-
b_VI
13 8 10 6
x x x x
x--------14 9 x 6------6
x-----17 x x-------15 x
15 12 13 9
x 10 x 7

C D Bb B

-=Lead Up=-

x x x
7--------7 x-9-(9)---9
x x x
x-----9 11 10
x--11------11 x 13
9 13 11

C# C# G#

-=Climb=-
b_VII
x x 10 x
9------9 10------10 x x------12
7------(7) x x-------8 13
x------9 11------11 9 x
7------7 9 x 12
x x x 10

E F# A B D

(-=Alternate Top Chord=-)

9
x
10
8
6
x

Eb

-=Keyboard Solo=-
-=Guitar Solo=-

-=Modulated Head Chords=-
b_VI
13 8 10 6
x x x x
x--------14 9 x 6------6
x-----17 x x-------15 x
15 12 13 9
x 10 x 7

F D Eb B

-=Lead Up=-

x x x
7--------7 x-9-(9)---9
x x x
x-----9 11 10
x--11------11 x 13
9 13 11

F# C# G#

-=Climb=-
b_VII
x x 10 x
9------9 10------10 x x------12
7------(7) x x-------8 13
x------9 11------11 9 x
7------7 9 x 12
x x x 10

E F# A B D

(-=Top Chord=-) -=Climax=-
b_IX b_VII
12 14 16 9 x
x x x x 7
13 16 x---17 x---9 7
11 14 15 x 7
9 10 11 12 x
x x x 10 3

F# C Bb D G

-=Aftermath=-
b_V
0 2 (2)--2 4------4 5 x---7
x---------0 (0) (0) x x x
1-------1 x---3 4 6 x 9
x---2 x x x x---9 LH x
x-----2 4 6 6 7 9
0 (0) (0) 4 5 7

E B G# A B

(-=Pause=-)
b_XIV
x---14
14---------20 RH
x------19--x
9
14
15

G

-=Bridge-based Outro=-
b_VI b_VI b_IV
x----9 6 x----9 4
x x--------6 7 4
11------11 x 6 x
x x x x
11 x---9 8 7
9 x-----7 6 5

C# B Bb A

-=Outro=-
b_III b_II
x------6 x-------6 2
4 4 x
3 3 3
x x x-------6
5 4 2
3 x 0

G F# E

----------------

CD7001-300 Nike W Air VaporMax 2019 CPFM Cactus Plant Flea Market